Thursday, 28 March 2013

Airtel tune guitar tabs(lead)


G---7--7-7-7---------------7--5----
B------------------5--6--5--------5--
e---------------5---------------------


D---------------------------------------7-
G---7-----7--5--7-------------7---5-----
B-------5------------5--6--5------------
e-------------------------------------------


G-----------------------------7----------------------
B---------------------8---6-------6---8----------8--
e---10----5---8--5------------------------5--6--------



G--------7--7-7-7---------------7--5----
B--6-5------------------5--6--5--------5--
e--------------------5---------------------




D---------------------------------------7-
G---7-----7--5--7-------------7---5-----
B-------5------------5--6--5------------
e-------------------------------------------

Popular Posts

Recent Posts

Unordered List

Text Widget

Blog Archive